ISO-10303-21;
HEADER;
FILE_DESCRIPTION (( 'STEP AP214' ),
    '1' );
FILE_NAME ('FD Base Plate.STEP',
    '2007-05-01T21:12:51',
    ( 'Toke Th. Pedersen' ),
    ( '' ),
    'SwSTEP 2.0',
    'SolidWorks 2007',
    '' );
FILE_SCHEMA (( 'AUTOMOTIVE_DESIGN' ));
ENDSEC;

DATA;
#1 = ORIENTED_EDGE ( 'NONE', *, *, #37, .T. ) ;
#2 = EDGE_CURVE ( 'NONE', #94, #93, #185, .T. ) ;
#3 = ORIENTED_EDGE ( 'NONE', *, *, #24, .T. ) ;
#4 = EDGE_LOOP ( 'NONE', ( #172, #190, #3, #15 ) ) ;
#5 = EDGE_LOOP ( 'NONE', ( #138, #1 ) ) ;
#6 = ORIENTED_EDGE ( 'NONE', *, *, #2, .F. ) ;
#7 = ORIENTED_EDGE ( 'NONE', *, *, #76, .T. ) ;
#8 = EDGE_CURVE ( 'NONE', #127, #126, #158, .T. ) ;
#9 = EDGE_LOOP ( 'NONE', ( #72, #73, #74, #7 ) ) ;
#10 = ORIENTED_EDGE ( 'NONE', *, *, #44, .T. ) ;
#11 = ORIENTED_EDGE ( 'NONE', *, *, #125, .T. ) ;
#12 = EDGE_LOOP ( 'NONE', ( #153, #167 ) ) ;
#13 = ORIENTED_EDGE ( 'NONE', *, *, #91, .F. ) ;
#14 = ORIENTED_EDGE ( 'NONE', *, *, #8, .T. ) ;
#15 = ORIENTED_EDGE ( 'NONE', *, *, #107, .T. ) ;
#16 = ADVANCED_FACE ( 'NONE', ( #159 ), #178, .F. ) ;
#17 = EDGE_CURVE ( 'NONE', #48, #62, #176, .T. ) ;
#18 = ADVANCED_FACE ( 'NONE', ( #189 ), #179, .T. ) ;
#19 = ADVANCED_FACE ( 'NONE', ( #149 ), #144, .F. ) ;
#20 = VERTEX_POINT ( 'NONE', #116 ) ;
#21 = ADVANCED_FACE ( 'NONE', ( #120 ), #119, .T. ) ;
#22 = ORIENTED_EDGE ( 'NONE', *, *, #58, .F. ) ;
#23 = EDGE_LOOP ( 'NONE', ( #66, #100 ) ) ;
#24 = EDGE_CURVE ( 'NONE', #48, #50, #118, .T. ) ;
#25 = EDGE_CURVE ( 'NONE', #67, #50, #231, .T. ) ;
#26 = ORIENTED_EDGE ( 'NONE', *, *, #91, .T. ) ;
#27 = ORIENTED_EDGE ( 'NONE', *, *, #28, .T. ) ;
#28 = EDGE_CURVE ( 'NONE', #92, #33, #211, .T. ) ;
#29 = ADVANCED_FACE ( 'NONE', ( #220 ), #223, .T. ) ;
#30 = ORIENTED_EDGE ( 'NONE', *, *, #58, .T. ) ;
#31 = ORIENTED_EDGE ( 'NONE', *, *, #104, .T. ) ;
#32 = VERTEX_POINT ( 'NONE', #224 ) ;
#33 = VERTEX_POINT ( 'NONE', #254 ) ;
#34 = ORIENTED_EDGE ( 'NONE', *, *, #36, .F. ) ;
#35 = EDGE_LOOP ( 'NONE', ( #34, #59 ) ) ;
#36 = EDGE_CURVE ( 'NONE', #33, #92, #253, .T. ) ;
#37 = EDGE_CURVE ( 'NONE', #62, #48, #237, .T. ) ;
#38 = ORIENTED_EDGE ( 'NONE', *, *, #37, .F. ) ;
#39 = EDGE_CURVE ( 'NONE', #93, #94, #215, .T. ) ;
#40 = EDGE_LOOP ( 'NONE', ( #45, #43, #75, #10 ) ) ;
#41 = ADVANCED_FACE ( 'NONE', ( #216 ), #206, .F. ) ;
#42 = ORIENTED_EDGE ( 'NONE', *, *, #55, .T. ) ;
#43 = ORIENTED_EDGE ( 'NONE', *, *, #46, .F. ) ;
#44 = EDGE_CURVE ( 'NONE', #77, #109, #197, .T. ) ;
#45 = ORIENTED_EDGE ( 'NONE', *, *, #64, .T. ) ;
#46 = EDGE_CURVE ( 'NONE', #56, #98, #203, .T. ) ;
#47 = EDGE_CURVE ( 'NONE', #62, #67, #199, .T. ) ;
#48 = VERTEX_POINT ( 'NONE', #227 ) ;
#49 = ORIENTED_EDGE ( 'NONE', *, *, #47, .T. ) ;
#50 = VERTEX_POINT ( 'NONE', #226 ) ;
#51 = ORIENTED_EDGE ( 'NONE', *, *, #24, .F. ) ;
#52 = ORIENTED_EDGE ( 'NONE', *, *, #44, .F. ) ;
#53 = ORIENTED_EDGE ( 'NONE', *, *, #46, .T. ) ;
#54 = EDGE_CURVE ( 'NONE', #95, #56, #249, .T. ) ;
#55 = EDGE_CURVE ( 'NONE', #20, #82, #245, .T. ) ;
#56 = VERTEX_POINT ( 'NONE', #241 ) ;
#57 = ORIENTED_EDGE ( 'NONE', *, *, #39, .F. ) ;
#58 = EDGE_CURVE ( 'NONE', #82, #32, #239, .T. ) ;
#59 = ORIENTED_EDGE ( 'NONE', *, *, #28, .F. ) ;
#60 = ORIENTED_EDGE ( 'NONE', *, *, #104, .F. ) ;
#61 = ORIENTED_EDGE ( 'NONE', *, *, #25, .F. ) ;
#62 = VERTEX_POINT ( 'NONE', #271 ) ;
#63 = ORIENTED_EDGE ( 'NONE', *, *, #64, .F. ) ;
#64 = EDGE_CURVE ( 'NONE', #109, #98, #272, .T. ) ;
#65 = EDGE_LOOP ( 'NONE', ( #31, #63, #105, #30 ) ) ;
#66 = ORIENTED_EDGE ( 'NONE', *, *, #99, .F. ) ;
#67 = VERTEX_POINT ( 'NONE', #258 ) ;
#68 = ADVANCED_FACE ( 'NONE', ( #312 ), #262, .T. ) ;
#69 = EDGE_LOOP ( 'NONE', ( #38, #49, #102, #51 ) ) ;
#70 = ADVANCED_FACE ( 'NONE', ( #276 ), #273, .F. ) ;
#71 = ADVANCED_FACE ( 'NONE', ( #274 ), #301, .T. ) ;
#72 = ORIENTED_EDGE ( 'NONE', *, *, #54, .F. ) ;
#73 = ORIENTED_EDGE ( 'NONE', *, *, #85, .F. ) ;
#74 = ORIENTED_EDGE ( 'NONE', *, *, #78, .T. ) ;
#75 = ORIENTED_EDGE ( 'NONE', *, *, #76, .F. ) ;
#76 = EDGE_CURVE ( 'NONE', #77, #56, #290, .T. ) ;
#77 = VERTEX_POINT ( 'NONE', #300 ) ;
#78 = EDGE_CURVE ( 'NONE', #20, #77, #265, .T. ) ;
#79 = ORIENTED_EDGE ( 'NONE', *, *, #78, .F. ) ;
#80 = ORIENTED_EDGE ( 'NONE', *, *, #81, .F. ) ;
#81 = EDGE_CURVE ( 'NONE', #95, #32, #269, .T. ) ;
#82 = VERTEX_POINT ( 'NONE', #311 ) ;
#83 = ORIENTED_EDGE ( 'NONE', *, *, #54, .T. ) ;
#84 = ORIENTED_EDGE ( 'NONE', *, *, #85, .T. ) ;
#85 = EDGE_CURVE ( 'NONE', #20, #95, #310, .T. ) ;
#86 = ORIENTED_EDGE ( 'NONE', *, *, #55, .F. ) ;
#87 = ORIENTED_EDGE ( 'NONE', *, *, #110, .T. ) ;
#88 = EDGE_LOOP ( 'NONE', ( #22, #86, #84, #89 ) ) ;
#89 = ORIENTED_EDGE ( 'NONE', *, *, #81, .T. ) ;
#90 = EDGE_LOOP ( 'NONE', ( #87, #52, #79, #42 ) ) ;
#91 = EDGE_CURVE ( 'NONE', #93, #92, #304, .T. ) ;
#92 = VERTEX_POINT ( 'NONE', #297 ) ;
#93 = VERTEX_POINT ( 'NONE', #296 ) ;
#94 = VERTEX_POINT ( 'NONE', #295 ) ;
#95 = VERTEX_POINT ( 'NONE', #294 ) ;
#96 = ORIENTED_EDGE ( 'NONE', *, *, #97, .F. ) ;
#97 = EDGE_CURVE ( 'NONE', #94, #33, #286, .T. ) ;
#98 = VERTEX_POINT ( 'NONE', #282 ) ;
#99 = EDGE_CURVE ( 'NONE', #123, #155, #281, .T. ) ;
#100 = ORIENTED_EDGE ( 'NONE', *, *, #122, .F. ) ;
#101 = ADVANCED_FACE ( 'NONE', ( #410, #409, #408, #407 ), #372, .T. ) ;
#102 = ORIENTED_EDGE ( 'NONE', *, *, #25, .T. ) ;
#103 = EDGE_LOOP ( 'NONE', ( #57, #26, #27, #96 ) ) ;
#104 = EDGE_CURVE ( 'NONE', #32, #98, #400, .T. ) ;
#105 = ORIENTED_EDGE ( 'NONE', *, *, #110, .F. ) ;
#106 = ORIENTED_EDGE ( 'NONE', *, *, #107, .F. ) ;
#107 = EDGE_CURVE ( 'NONE', #50, #67, #414, .T. ) ;
#108 = EDGE_LOOP ( 'NONE', ( #60, #80, #83, #53 ) ) ;
#109 = VERTEX_POINT ( 'NONE', #369 ) ;
#110 = EDGE_CURVE ( 'NONE', #82, #109, #382, .T. ) ;
#111 = EDGE_LOOP ( 'NONE', ( #106, #61 ) ) ;
#112 = DIRECTION ( 'NONE',  ( 0.0000000000000000000, 0.0000000000000000000, -1.000000000000000000 ) ) ;
#113 = DIRECTION ( 'NONE',  ( 0.0000000000000000000, -1.000000000000000000, 0.0000000000000000000 ) ) ;
#114 = CARTESIAN_POINT ( 'NONE',  ( 2.845501612114275700E-014, 100.0000000000000300, -12.00000000000000000 ) ) ;
#115 = AXIS2_PLACEMENT_3D ( 'NONE', #114, #113, #112 ) ;
#116 = CARTESIAN_POINT ( 'NONE',  ( -75.00000000000000000, 100.0000000000000300, -12.00000000000000000 ) ) ;
#117 = AXIS2_PLACEMENT_3D ( 'NONE', #137, #136, #135 ) ;
#118 = LINE ( 'NONE', #133, #132 ) ;
#119 = PLANE ( 'NONE',  #117 ) ;
#120 = FACE_OUTER_BOUND ( 'NONE', #88, .T. ) ;
#121 = EDGE_LOOP ( 'NONE', ( #14, #11 ) ) ;
#122 = EDGE_CURVE ( 'NONE', #155, #123, #393, .T. ) ;
#123 = VERTEX_POINT ( 'NONE', #365 ) ;
#124 = ORIENTED_EDGE ( 'NONE', *, *, #152, .F. ) ;
#125 = EDGE_CURVE ( 'NONE', #126, #127, #392, .T. ) ;
#126 = VERTEX_POINT ( 'NONE', #374 ) ;
#127 = VERTEX_POINT ( 'NONE', #373 ) ;
#128 = ADVANCED_FACE ( 'NONE', ( #403 ), #401, .F. ) ;
#129 = CARTESIAN_POINT ( 'NONE',  ( 0.0000000000000000000, -87.50000000000000000, 0.0000000000000000000 ) ) ;
#130 = DIRECTION ( 'NONE',  ( 1.387778780781445700E-016, -1.000000000000000000, 0.0000000000000000000 ) ) ;
#131 = DIRECTION ( 'NONE',  ( 0.0000000000000000000, 0.0000000000000000000, -1.000000000000000000 ) ) ;
#132 = VECTOR ( 'NONE', #131, 1000.000000000000000 ) ;
#133 = CARTESIAN_POINT ( 'NONE',  ( -57.75000000000000000, 0.0000000000000000000, 3.000000000000000000 ) ) ;
#134 = VECTOR ( 'NONE', #130, 1000.000000000000000 ) ;
#135 = DIRECTION ( 'NONE',  ( 1.387778780781445400E-016, -1.000000000000000000, 0.0000000000000000000 ) ) ;
#136 = DIRECTION ( 'NONE',  ( -1.000000000000000000, -1.387778780781445400E-016, 0.0000000000000000000 ) ) ;
#137 = CARTESIAN_POINT ( 'NONE',  ( -74.99999999999995700, -194.5957861825378600, -12.00000000000000000 ) ) ;
#138 = ORIENTED_EDGE ( 'NONE', *, *, #17, .T. ) ;
#139 = ADVANCED_FACE ( 'NONE', ( #391 ), #387, .F. ) ;
#140 = ORIENTED_EDGE ( 'NONE', *, *, #8, .F. ) ;
#141 = ORIENTED_EDGE ( 'NONE', *, *, #154, .F. ) ;
#142 = EDGE_LOOP ( 'NONE', ( #150, #173, #143, #124 ) ) ;
#143 = ORIENTED_EDGE ( 'NONE', *, *, #122, .T. ) ;
#144 = PLANE ( 'NONE',  #115 ) ;
#145 = DIRECTION ( 'NONE',  ( 1.000000000000000000, 0.0000000000000000000, 0.0000000000000000000 ) ) ;
#146 = DIRECTION ( 'NONE',  ( 0.0000000000000000000, 0.0000000000000000000, 1.000000000000000000 ) ) ;
#147 = CARTESIAN_POINT ( 'NONE',  ( 2.845501612114275700E-014, -194.5957861825378600, 3.000000000000000000 ) ) ;
#148 = AXIS2_PLACEMENT_3D ( 'NONE', #147, #146, #145 ) ;
#149 = FACE_OUTER_BOUND ( 'NONE', #90, .T. ) ;
#150 = ORIENTED_EDGE ( 'NONE', *, *, #125, .F. ) ;
#151 = ORIENTED_EDGE ( 'NONE', *, *, #97, .T. ) ;
#152 = EDGE_CURVE ( 'NONE', #127, #123, #406, .T. ) ;
#153 = ORIENTED_EDGE ( 'NONE', *, *, #2, .T. ) ;
#154 = EDGE_CURVE ( 'NONE', #126, #155, #362, .T. ) ;
#155 = VERTEX_POINT ( 'NONE', #336 ) ;
#156 = CARTESIAN_POINT ( 'NONE',  ( 0.0000000000000000000, -87.50000000000000000, -12.00000000000000000 ) ) ;
#157 = AXIS2_PLACEMENT_3D ( 'NONE', #156, #163, #162 ) ;
#158 = CIRCLE ( 'NONE', #157, 6.500000000000003600 ) ;
#159 = FACE_OUTER_BOUND ( 'NONE', #166, .T. ) ;
#160 = CARTESIAN_POINT ( 'NONE',  ( 0.0000000000000000000, 87.50000000000000000, -12.00000000000000000 ) ) ;
#161 = AXIS2_PLACEMENT_3D ( 'NONE', #160, #177, #175 ) ;
#162 = DIRECTION ( 'NONE',  ( 1.000000000000000000, 0.0000000000000000000, 0.0000000000000000000 ) ) ;
#163 = DIRECTION ( 'NONE',  ( 0.0000000000000000000, 0.0000000000000000000, 1.000000000000000000 ) ) ;
#164 = CLOSED_SHELL ( 'NONE', ( #128, #70, #68, #101, #29, #21, #19, #41, #168, #71, #18, #16, #139 ) ) ;
#165 = MANIFOLD_SOLID_BREP ( 'NONE', #164 ) ;
#166 = EDGE_LOOP ( 'NONE', ( #13, #6, #151, #174 ) ) ;
#167 = ORIENTED_EDGE ( 'NONE', *, *, #39, .T. ) ;
#168 = ADVANCED_FACE ( 'NONE', ( #321, #318, #324 ), #322, .F. ) ;
#169 = EDGE_LOOP ( 'NONE', ( #141, #140, #170, #171 ) ) ;
#170 = ORIENTED_EDGE ( 'NONE', *, *, #152, .T. ) ;
#171 = ORIENTED_EDGE ( 'NONE', *, *, #99, .T. ) ;
#172 = ORIENTED_EDGE ( 'NONE', *, *, #47, .F. ) ;
#173 = ORIENTED_EDGE ( 'NONE', *, *, #154, .T. ) ;
#174 = ORIENTED_EDGE ( 'NONE', *, *, #36, .T. ) ;
#175 = DIRECTION ( 'NONE',  ( 1.000000000000000000, 0.0000000000000000000, 0.0000000000000000000 ) ) ;
#176 = CIRCLE ( 'NONE', #188, 57.75000000000000000 ) ;
#177 = DIRECTION ( 'NONE',  ( 0.0000000000000000000, 0.0000000000000000000, 1.000000000000000000 ) ) ;
#178 = CYLINDRICAL_SURFACE ( 'NONE', #161, 6.500000000000003600 ) ;
#179 = PLANE ( 'NONE',  #148 ) ;
#180 = DIRECTION ( 'NONE',  ( 1.000000000000000000, 0.0000000000000000000, 0.0000000000000000000 ) ) ;
#181 = DIRECTION ( 'NONE',  ( 0.0000000000000000000, 0.0000000000000000000, 1.000000000000000000 ) ) ;
#182 = DIRECTION ( 'NONE',  ( 0.0000000000000000000, 0.0000000000000000000, 1.000000000000000000 ) ) ;
#183 = CARTESIAN_POINT ( 'NONE',  ( 0.0000000000000000000, 87.50000000000000000, -12.00000000000000000 ) ) ;
#184 = AXIS2_PLACEMENT_3D ( 'NONE', #183, #182, #186 ) ;
#185 = CIRCLE ( 'NONE', #184, 6.500000000000003600 ) ;
#186 = DIRECTION ( 'NONE',  ( 1.000000000000000000, 0.0000000000000000000, 0.0000000000000000000 ) ) ;
#187 = CARTESIAN_POINT ( 'NONE',  ( 0.0000000000000000000, 0.0000000000000000000, 3.000000000000000000 ) ) ;
#188 = AXIS2_PLACEMENT_3D ( 'NONE', #187, #181, #180 ) ;
#189 = FACE_OUTER_BOUND ( 'NONE', #5, .T. ) ;
#190 = ORIENTED_EDGE ( 'NONE', *, *, #17, .F. ) ;
#191 = DIRECTION ( 'NONE',  ( 0.0000000000000000000, 0.0000000000000000000, 1.000000000000000000 ) ) ;
#192 = DIRECTION ( 'NONE',  ( 1.000000000000000000, 0.0000000000000000000, 0.0000000000000000000 ) ) ;
#193 = DIRECTION ( 'NONE',  ( 0.0000000000000000000, 0.0000000000000000000, 1.000000000000000000 ) ) ;
#194 = DIRECTION ( 'NONE',  ( 1.387778780781445400E-016, -1.000000000000000000, 0.0000000000000000000 ) ) ;
#195 = DIRECTION ( 'NONE',  ( -1.000000000000000000, -1.387778780781445400E-016, 0.0000000000000000000 ) ) ;
#196 = CARTESIAN_POINT ( 'NONE',  ( 75.00000000000004300, -194.5957861825378600, -12.00000000000000000 ) ) ;
#197 = LINE ( 'NONE', #209, #208 ) ;
#198 = DIRECTION ( 'NONE',  ( 1.000000000000000000, 0.0000000000000000000, 0.0000000000000000000 ) ) ;
#199 = LINE ( 'NONE', #230, #229 ) ;
#200 = DIRECTION ( 'NONE',  ( 0.0000000000000000000, 0.0000000000000000000, 1.000000000000000000 ) ) ;
#201 = VECTOR ( 'NONE', #200, 1000.000000000000000 ) ;
#202 = CARTESIAN_POINT ( 'NONE',  ( 75.00000000000002800, -100.0000000000000000, -12.00000000000000000 ) ) ;
#203 = LINE ( 'NONE', #202, #201 ) ;
#204 = DIRECTION ( 'NONE',  ( 1.000000000000000000, 0.0000000000000000000, 0.0000000000000000000 ) ) ;
#205 = AXIS2_PLACEMENT_3D ( 'NONE', #196, #195, #194 ) ;
#206 = PLANE ( 'NONE',  #205 ) ;
#207 = DIRECTION ( 'NONE',  ( 0.0000000000000000000, 0.0000000000000000000, 1.000000000000000000 ) ) ;
#208 = VECTOR ( 'NONE', #207, 1000.000000000000000 ) ;
#209 = CARTESIAN_POINT ( 'NONE',  ( 75.00000000000000000, 100.0000000000000300, -12.00000000000000000 ) ) ;
#210 = AXIS2_PLACEMENT_3D ( 'NONE', #252, #191, #198 ) ;
#211 = CIRCLE ( 'NONE', #225, 6.500000000000003600 ) ;
#212 = DIRECTION ( 'NONE',  ( 1.000000000000000000, 0.0000000000000000000, 0.0000000000000000000 ) ) ;
#213 = DIRECTION ( 'NONE',  ( 0.0000000000000000000, 0.0000000000000000000, 1.000000000000000000 ) ) ;
#214 = AXIS2_PLACEMENT_3D ( 'NONE', #217, #213, #212 ) ;
#215 = CIRCLE ( 'NONE', #214, 6.500000000000003600 ) ;
#216 = FACE_OUTER_BOUND ( 'NONE', #40, .T. ) ;
#217 = CARTESIAN_POINT ( 'NONE',  ( 0.0000000000000000000, 87.50000000000000000, -12.00000000000000000 ) ) ;
#218 = DIRECTION ( 'NONE',  ( 1.000000000000000000, 0.0000000000000000000, 0.0000000000000000000 ) ) ;
#219 = DIRECTION ( 'NONE',  ( 0.0000000000000000000, 0.0000000000000000000, 1.000000000000000000 ) ) ;
#220 = FACE_OUTER_BOUND ( 'NONE', #108, .T. ) ;
#221 = CARTESIAN_POINT ( 'NONE',  ( 0.0000000000000000000, 87.50000000000000000, 0.0000000000000000000 ) ) ;
#222 = AXIS2_PLACEMENT_3D ( 'NONE', #221, #193, #192 ) ;
#223 = PLANE ( 'NONE',  #234 ) ;
#224 = CARTESIAN_POINT ( 'NONE',  ( -74.99999999999997200, -100.0000000000000000, 0.0000000000000000000 ) ) ;
#225 = AXIS2_PLACEMENT_3D ( 'NONE', #251, #250, #204 ) ;
#226 = CARTESIAN_POINT ( 'NONE',  ( -57.75000000000000000, 0.0000000000000000000, 0.0000000000000000000 ) ) ;
#227 = CARTESIAN_POINT ( 'NONE',  ( -57.75000000000000000, 0.0000000000000000000, 3.000000000000000000 ) ) ;
#228 = DIRECTION ( 'NONE',  ( 0.0000000000000000000, 0.0000000000000000000, -1.000000000000000000 ) ) ;
#229 = VECTOR ( 'NONE', #228, 1000.000000000000000 ) ;
#230 = CARTESIAN_POINT ( 'NONE',  ( 57.75000000000000000, 7.072101693324229500E-015, 3.000000000000000000 ) ) ;
#231 = CIRCLE ( 'NONE', #210, 57.75000000000000000 ) ;
#232 = DIRECTION ( 'NONE',  ( 0.0000000000000000000, -1.000000000000000000, 0.0000000000000000000 ) ) ;
#233 = CARTESIAN_POINT ( 'NONE',  ( 2.845501612114275700E-014, -100.0000000000000000, -12.00000000000000000 ) ) ;
#234 = AXIS2_PLACEMENT_3D ( 'NONE', #233, #232, #255 ) ;
#235 = CARTESIAN_POINT ( 'NONE',  ( 0.0000000000000000000, 0.0000000000000000000, 3.000000000000000000 ) ) ;
#236 = AXIS2_PLACEMENT_3D ( 'NONE', #235, #219, #218 ) ;
#237 = CIRCLE ( 'NONE', #236, 57.75000000000000000 ) ;
#238 = CARTESIAN_POINT ( 'NONE',  ( -74.99999999999995700, -194.5957861825378600, 0.0000000000000000000 ) ) ;
#239 = LINE ( 'NONE', #238, #134 ) ;
#240 = DIRECTION ( 'NONE',  ( 0.0000000000000000000, 0.0000000000000000000, 1.000000000000000000 ) ) ;
#241 = CARTESIAN_POINT ( 'NONE',  ( 75.00000000000002800, -100.0000000000000000, -12.00000000000000000 ) ) ;
#242 = DIRECTION ( 'NONE',  ( 0.0000000000000000000, 0.0000000000000000000, 1.000000000000000000 ) ) ;
#243 = VECTOR ( 'NONE', #242, 1000.000000000000000 ) ;
#244 = CARTESIAN_POINT ( 'NONE',  ( -75.00000000000000000, 100.0000000000000300, -12.00000000000000000 ) ) ;
#245 = LINE ( 'NONE', #244, #243 ) ;
#246 = DIRECTION ( 'NONE',  ( 1.000000000000000000, 0.0000000000000000000, 0.0000000000000000000 ) ) ;
#247 = VECTOR ( 'NONE', #246, 1000.000000000000000 ) ;
#248 = CARTESIAN_POINT ( 'NONE',  ( 2.845501612114275700E-014, -100.0000000000000000, -12.00000000000000000 ) ) ;
#249 = LINE ( 'NONE', #248, #247 ) ;
#250 = DIRECTION ( 'NONE',  ( 0.0000000000000000000, 0.0000000000000000000, 1.000000000000000000 ) ) ;
#251 = CARTESIAN_POINT ( 'NONE',  ( 0.0000000000000000000, 87.50000000000000000, 0.0000000000000000000 ) ) ;
#252 = CARTESIAN_POINT ( 'NONE',  ( 0.0000000000000000000, 0.0000000000000000000, 0.0000000000000000000 ) ) ;
#253 = CIRCLE ( 'NONE', #222, 6.500000000000003600 ) ;
#254 = CARTESIAN_POINT ( 'NONE',  ( 6.500000000000003600, 87.50000000000000000, 0.0000000000000000000 ) ) ;
#255 = DIRECTION ( 'NONE',  ( 0.0000000000000000000, 0.0000000000000000000, -1.000000000000000000 ) ) ;
#256 = DIRECTION ( 'NONE',  ( -1.000000000000000000, 0.0000000000000000000, 0.0000000000000000000 ) ) ;
#257 = CARTESIAN_POINT ( 'NONE',  ( 75.00000000000004300, -194.5957861825378600, 0.0000000000000000000 ) ) ;
#258 = CARTESIAN_POINT ( 'NONE',  ( 57.75000000000000000, 7.072101693324229500E-015, 0.0000000000000000000 ) ) ;
#259 = VECTOR ( 'NONE', #302, 1000.000000000000000 ) ;
#260 = CARTESIAN_POINT ( 'NONE',  ( 0.0000000000000000000, 0.0000000000000000000, 3.000000000000000000 ) ) ;
#261 = AXIS2_PLACEMENT_3D ( 'NONE', #260, #278, #277 ) ;
#262 = CYLINDRICAL_SURFACE ( 'NONE', #261, 57.75000000000000000 ) ;
#263 = VECTOR ( 'NONE', #270, 1000.000000000000000 ) ;
#264 = CARTESIAN_POINT ( 'NONE',  ( 2.845501612114275700E-014, 100.0000000000000300, -12.00000000000000000 ) ) ;
#265 = LINE ( 'NONE', #264, #263 ) ;
#266 = DIRECTION ( 'NONE',  ( 0.0000000000000000000, 0.0000000000000000000, 1.000000000000000000 ) ) ;
#267 = VECTOR ( 'NONE', #266, 1000.000000000000000 ) ;
#268 = CARTESIAN_POINT ( 'NONE',  ( -74.99999999999997200, -100.0000000000000000, -12.00000000000000000 ) ) ;
#269 = LINE ( 'NONE', #268, #267 ) ;
#270 = DIRECTION ( 'NONE',  ( 1.000000000000000000, 0.0000000000000000000, 0.0000000000000000000 ) ) ;
#271 = CARTESIAN_POINT ( 'NONE',  ( 57.75000000000000000, 7.072101693324229500E-015, 3.000000000000000000 ) ) ;
#272 = LINE ( 'NONE', #257, #259 ) ;
#273 = CYLINDRICAL_SURFACE ( 'NONE', #279, 6.500000000000003600 ) ;
#274 = FACE_OUTER_BOUND ( 'NONE', #4, .T. ) ;
#275 = AXIS2_PLACEMENT_3D ( 'NONE', #307, #306, #256 ) ;
#276 = FACE_OUTER_BOUND ( 'NONE', #103, .T. ) ;
#277 = DIRECTION ( 'NONE',  ( -1.000000000000000000, 0.0000000000000000000, 0.0000000000000000000 ) ) ;
#278 = DIRECTION ( 'NONE',  ( 0.0000000000000000000, 0.0000000000000000000, -1.000000000000000000 ) ) ;
#279 = AXIS2_PLACEMENT_3D ( 'NONE', #293, #292, #291 ) ;
#280 = AXIS2_PLACEMENT_3D ( 'NONE', #129, #240, #371 ) ;
#281 = CIRCLE ( 'NONE', #280, 6.500000000000003600 ) ;
#282 = CARTESIAN_POINT ( 'NONE',  ( 75.00000000000002800, -100.0000000000000000, 0.0000000000000000000 ) ) ;
#283 = DIRECTION ( 'NONE',  ( 0.0000000000000000000, 0.0000000000000000000, 1.000000000000000000 ) ) ;
#284 = VECTOR ( 'NONE', #283, 1000.000000000000000 ) ;
#285 = CARTESIAN_POINT ( 'NONE',  ( 6.500000000000003600, 87.50000000000000000, -12.00000000000000000 ) ) ;
#286 = LINE ( 'NONE', #285, #284 ) ;
#287 = DIRECTION ( 'NONE',  ( 1.387778780781445700E-016, -1.000000000000000000, 0.0000000000000000000 ) ) ;
#288 = VECTOR ( 'NONE', #287, 1000.000000000000000 ) ;
#289 = CARTESIAN_POINT ( 'NONE',  ( 75.00000000000004300, -194.5957861825378600, -12.00000000000000000 ) ) ;
#290 = LINE ( 'NONE', #289, #288 ) ;
#291 = DIRECTION ( 'NONE',  ( 1.000000000000000000, 0.0000000000000000000, 0.0000000000000000000 ) ) ;
#292 = DIRECTION ( 'NONE',  ( 0.0000000000000000000, 0.0000000000000000000, 1.000000000000000000 ) ) ;
#293 = CARTESIAN_POINT ( 'NONE',  ( 0.0000000000000000000, 87.50000000000000000, -12.00000000000000000 ) ) ;
#294 = CARTESIAN_POINT ( 'NONE',  ( -74.99999999999997200, -100.0000000000000000, -12.00000000000000000 ) ) ;
#295 = CARTESIAN_POINT ( 'NONE',  ( 6.500000000000003600, 87.50000000000000000, -12.00000000000000000 ) ) ;
#296 = CARTESIAN_POINT ( 'NONE',  ( -6.500000000000003600, 87.50000000000000000, -12.00000000000000000 ) ) ;
#297 = CARTESIAN_POINT ( 'NONE',  ( -6.500000000000003600, 87.50000000000000000, 0.0000000000000000000 ) ) ;
#298 = DIRECTION ( 'NONE',  ( 0.0000000000000000000, 0.0000000000000000000, 1.000000000000000000 ) ) ;
#299 = VECTOR ( 'NONE', #298, 1000.000000000000000 ) ;
#300 = CARTESIAN_POINT ( 'NONE',  ( 75.00000000000000000, 100.0000000000000300, -12.00000000000000000 ) ) ;
#301 = CYLINDRICAL_SURFACE ( 'NONE', #275, 57.75000000000000000 ) ;
#302 = DIRECTION ( 'NONE',  ( 1.387778780781445700E-016, -1.000000000000000000, 0.0000000000000000000 ) ) ;
#303 = CARTESIAN_POINT ( 'NONE',  ( -6.500000000000003600, 87.50000000000000000, -12.00000000000000000 ) ) ;
#304 = LINE ( 'NONE', #303, #299 ) ;
#305 = VECTOR ( 'NONE', #308, 1000.000000000000000 ) ;
#306 = DIRECTION ( 'NONE',  ( 0.0000000000000000000, 0.0000000000000000000, -1.000000000000000000 ) ) ;
#307 = CARTESIAN_POINT ( 'NONE',  ( 0.0000000000000000000, 0.0000000000000000000, 3.000000000000000000 ) ) ;
#308 = DIRECTION ( 'NONE',  ( 1.387778780781445700E-016, -1.000000000000000000, 0.0000000000000000000 ) ) ;
#309 = CARTESIAN_POINT ( 'NONE',  ( -74.99999999999995700, -194.5957861825378600, -12.00000000000000000 ) ) ;
#310 = LINE ( 'NONE', #309, #305 ) ;
#311 = CARTESIAN_POINT ( 'NONE',  ( -75.00000000000000000, 100.0000000000000300, 0.0000000000000000000 ) ) ;
#312 = FACE_OUTER_BOUND ( 'NONE', #69, .T. ) ;
#313 = CARTESIAN_POINT ( 'NONE',  ( -6.500000000000003600, -87.50000000000000000, -12.00000000000000000 ) ) ;
#314 = DIRECTION ( 'NONE',  ( 0.0000000000000000000, 0.0000000000000000000, 1.000000000000000000 ) ) ;
#315 = VECTOR ( 'NONE', #314, 1000.000000000000000 ) ;
#316 = UNCERTAINTY_MEASURE_WITH_UNIT (LENGTH_MEASURE( 1.000000000000000100E-005 ), #333, 'distance_accuracy_value', 'NONE');
#317 = CARTESIAN_POINT ( 'NONE',  ( 2.845501612114275700E-014, -194.5957861825378600, -12.00000000000000000 ) ) ;
#318 = FACE_BOUND ( 'NONE', #12, .T. ) ;
#319 = DIRECTION ( 'NONE',  ( 0.0000000000000000000, 0.0000000000000000000, 1.000000000000000000 ) ) ;
#320 =( GEOMETRIC_REPRESENTATION_CONTEXT ( 3 ) GLOBAL_UNCERTAINTY_ASSIGNED_CONTEXT ( ( #316 ) ) GLOBAL_UNIT_ASSIGNED_CONTEXT ( ( #333, #337, #330 ) ) REPRESENTATION_CONTEXT ( 'NONE', 'WORKASPACE' ) );
#321 = FACE_BOUND ( 'NONE', #121, .T. ) ;
#322 = PLANE ( 'NONE',  #323 ) ;
#323 = AXIS2_PLACEMENT_3D ( 'NONE', #317, #319, #325 ) ;
#324 = FACE_OUTER_BOUND ( 'NONE', #9, .T. ) ;
#325 = DIRECTION ( 'NONE',  ( 1.000000000000000000, 0.0000000000000000000, 0.0000000000000000000 ) ) ;
#326 = PRESENTATION_STYLE_ASSIGNMENT (( #334 ) ) ;
#327 = MECHANICAL_DESIGN_GEOMETRIC_PRESENTATION_REPRESENTATION (  '', ( #332 ), #320 ) ;
#328 = FILL_AREA_STYLE ('',( #335 ) ) ;
#329 = SURFACE_SIDE_STYLE ('',( #338 ) ) ;
#330 =( NAMED_UNIT ( * ) SI_UNIT ( $, .STERADIAN. ) SOLID_ANGLE_UNIT ( ) );
#331 = COLOUR_RGB ( '',0.6156862745098039500, 0.6431372549019607200, 0.6745098039215686700 ) ;
#332 = STYLED_ITEM ( 'NONE', ( #326 ), #165 ) ;
#333 =( LENGTH_UNIT ( ) NAMED_UNIT ( * ) SI_UNIT ( .MILLI., .METRE. ) );
#334 = SURFACE_STYLE_USAGE ( .BOTH. , #329 ) ;
#335 = FILL_AREA_STYLE_COLOUR ( '', #331 ) ;
#336 = CARTESIAN_POINT ( 'NONE',  ( -6.500000000000003600, -87.50000000000000000, 0.0000000000000000000 ) ) ;
#337 =( NAMED_UNIT ( * ) PLANE_ANGLE_UNIT ( ) SI_UNIT ( $, .RADIAN. ) );
#338 = SURFACE_STYLE_FILL_AREA ( #328 ) ;
#339 = PRESENTATION_LAYER_ASSIGNMENT (  '', '', ( #332 ) ) ;
#340 = ADVANCED_BREP_SHAPE_REPRESENTATION ( 'FD Base Plate', ( #165, #355 ), #348 ) ;
#341 =( NAMED_UNIT ( * ) SI_UNIT ( $, .STERADIAN. ) SOLID_ANGLE_UNIT ( ) );
#342 = PRODUCT ( 'FD Base Plate', 'FD Base Plate', '', ( #343 ) ) ;
#343 = PRODUCT_CONTEXT ( 'NONE', #345, 'mechanical' ) ;
#344 = APPLICATION_PROTOCOL_DEFINITION ( 'draft international standard', 'automotive_design', 1998, #345 ) ;
#345 = APPLICATION_CONTEXT ( 'automotive_design' ) ;
#346 = DIRECTION ( 'NONE',  ( 0.0000000000000000000, 0.0000000000000000000, 1.000000000000000000 ) ) ;
#347 = UNCERTAINTY_MEASURE_WITH_UNIT (LENGTH_MEASURE( 1.000000000000000100E-005 ), #352, 'distance_accuracy_value', 'NONE');
#348 =( GEOMETRIC_REPRESENTATION_CONTEXT ( 3 ) GLOBAL_UNCERTAINTY_ASSIGNED_CONTEXT ( ( #347 ) ) GLOBAL_UNIT_ASSIGNED_CONTEXT ( ( #352, #350, #341 ) ) REPRESENTATION_CONTEXT ( 'NONE', 'WORKASPACE' ) );
#349 = CARTESIAN_POINT ( 'NONE',  ( 0.0000000000000000000, 0.0000000000000000000, 0.0000000000000000000 ) ) ;
#350 =( NAMED_UNIT ( * ) PLANE_ANGLE_UNIT ( ) SI_UNIT ( $, .RADIAN. ) );
#351 = PRODUCT_DEFINITION_SHAPE ( 'NONE', 'NONE',  #358 ) ;
#352 =( LENGTH_UNIT ( ) NAMED_UNIT ( * ) SI_UNIT ( .MILLI., .METRE. ) );
#353 = SHAPE_DEFINITION_REPRESENTATION ( #351, #340 ) ;
#354 = DIRECTION ( 'NONE',  ( 1.000000000000000000, 0.0000000000000000000, 0.0000000000000000000 ) ) ;
#355 = AXIS2_PLACEMENT_3D ( 'NONE', #349, #346, #354 ) ;
#356 = PRODUCT_RELATED_PRODUCT_CATEGORY ( 'part', '', ( #342 ) ) ;
#357 = PRODUCT_DEFINITION_FORMATION_WITH_SPECIFIED_SOURCE ( 'ANY', '', #342, .NOT_KNOWN. ) ;
#358 = PRODUCT_DEFINITION ( 'UNKNOWN', '', #357, #359 ) ;
#359 = PRODUCT_DEFINITION_CONTEXT ( 'detailed design', #361, 'design' ) ;
#360 = APPLICATION_PROTOCOL_DEFINITION ( 'draft international standard', 'automotive_design', 1998, #361 ) ;
#361 = APPLICATION_CONTEXT ( 'automotive_design' ) ;
#362 = LINE ( 'NONE', #313, #315 ) ;
#363 = VECTOR ( 'NONE', #404, 1000.000000000000000 ) ;
#364 = CARTESIAN_POINT ( 'NONE',  ( 0.0000000000000000000, -87.50000000000000000, -12.00000000000000000 ) ) ;
#365 = CARTESIAN_POINT ( 'NONE',  ( 6.500000000000003600, -87.50000000000000000, 0.0000000000000000000 ) ) ;
#366 = DIRECTION ( 'NONE',  ( 1.000000000000000000, 0.0000000000000000000, 0.0000000000000000000 ) ) ;
#367 = DIRECTION ( 'NONE',  ( 0.0000000000000000000, 0.0000000000000000000, 1.000000000000000000 ) ) ;
#368 = CARTESIAN_POINT ( 'NONE',  ( 0.0000000000000000000, -87.50000000000000000, 0.0000000000000000000 ) ) ;
#369 = CARTESIAN_POINT ( 'NONE',  ( 75.00000000000000000, 100.0000000000000300, 0.0000000000000000000 ) ) ;
#370 = DIRECTION ( 'NONE',  ( 1.000000000000000000, 0.0000000000000000000, 0.0000000000000000000 ) ) ;
#371 = DIRECTION ( 'NONE',  ( 1.000000000000000000, 0.0000000000000000000, 0.0000000000000000000 ) ) ;
#372 = PLANE ( 'NONE',  #398 ) ;
#373 = CARTESIAN_POINT ( 'NONE',  ( 6.500000000000003600, -87.50000000000000000, -12.00000000000000000 ) ) ;
#374 = CARTESIAN_POINT ( 'NONE',  ( -6.500000000000003600, -87.50000000000000000, -12.00000000000000000 ) ) ;
#375 = DIRECTION ( 'NONE',  ( 1.000000000000000000, 0.0000000000000000000, 0.0000000000000000000 ) ) ;
#376 = DIRECTION ( 'NONE',  ( 0.0000000000000000000, 0.0000000000000000000, 1.000000000000000000 ) ) ;
#377 = AXIS2_PLACEMENT_3D ( 'NONE', #364, #376, #375 ) ;
#378 = AXIS2_PLACEMENT_3D ( 'NONE', #368, #367, #366 ) ;
#379 = DIRECTION ( 'NONE',  ( 1.000000000000000000, 0.0000000000000000000, 0.0000000000000000000 ) ) ;
#380 = VECTOR ( 'NONE', #379, 1000.000000000000000 ) ;
#381 = CARTESIAN_POINT ( 'NONE',  ( 2.845501612114275700E-014, 100.0000000000000300, 0.0000000000000000000 ) ) ;
#382 = LINE ( 'NONE', #381, #380 ) ;
#383 = DIRECTION ( 'NONE',  ( 1.000000000000000000, 0.0000000000000000000, 0.0000000000000000000 ) ) ;
#384 = VECTOR ( 'NONE', #383, 1000.000000000000000 ) ;
#385 = CARTESIAN_POINT ( 'NONE',  ( 0.0000000000000000000, -87.50000000000000000, -12.00000000000000000 ) ) ;
#386 = AXIS2_PLACEMENT_3D ( 'NONE', #385, #395, #394 ) ;
#387 = CYLINDRICAL_SURFACE ( 'NONE', #386, 6.500000000000003600 ) ;
#388 = DIRECTION ( 'NONE',  ( 1.000000000000000000, 0.0000000000000000000, 0.0000000000000000000 ) ) ;
#389 = DIRECTION ( 'NONE',  ( 0.0000000000000000000, 0.0000000000000000000, 1.000000000000000000 ) ) ;
#390 = AXIS2_PLACEMENT_3D ( 'NONE', #402, #389, #388 ) ;
#391 = FACE_OUTER_BOUND ( 'NONE', #169, .T. ) ;
#392 = CIRCLE ( 'NONE', #377, 6.500000000000003600 ) ;
#393 = CIRCLE ( 'NONE', #378, 6.500000000000003600 ) ;
#394 = DIRECTION ( 'NONE',  ( 1.000000000000000000, 0.0000000000000000000, 0.0000000000000000000 ) ) ;
#395 = DIRECTION ( 'NONE',  ( 0.0000000000000000000, 0.0000000000000000000, 1.000000000000000000 ) ) ;
#396 = DIRECTION ( 'NONE',  ( 1.000000000000000000, 0.0000000000000000000, 0.0000000000000000000 ) ) ;
#397 = DIRECTION ( 'NONE',  ( 0.0000000000000000000, 0.0000000000000000000, 1.000000000000000000 ) ) ;
#398 = AXIS2_PLACEMENT_3D ( 'NONE', #415, #397, #396 ) ;
#399 = CARTESIAN_POINT ( 'NONE',  ( 2.845501612114275700E-014, -100.0000000000000000, 0.0000000000000000000 ) ) ;
#400 = LINE ( 'NONE', #399, #384 ) ;
#401 = CYLINDRICAL_SURFACE ( 'NONE', #390, 6.500000000000003600 ) ;
#402 = CARTESIAN_POINT ( 'NONE',  ( 0.0000000000000000000, -87.50000000000000000, -12.00000000000000000 ) ) ;
#403 = FACE_OUTER_BOUND ( 'NONE', #142, .T. ) ;
#404 = DIRECTION ( 'NONE',  ( 0.0000000000000000000, 0.0000000000000000000, 1.000000000000000000 ) ) ;
#405 = CARTESIAN_POINT ( 'NONE',  ( 6.500000000000003600, -87.50000000000000000, -12.00000000000000000 ) ) ;
#406 = LINE ( 'NONE', #405, #363 ) ;
#407 = FACE_BOUND ( 'NONE', #111, .T. ) ;
#408 = FACE_OUTER_BOUND ( 'NONE', #65, .T. ) ;
#409 = FACE_BOUND ( 'NONE', #35, .T. ) ;
#410 = FACE_BOUND ( 'NONE', #23, .T. ) ;
#411 = DIRECTION ( 'NONE',  ( 0.0000000000000000000, 0.0000000000000000000, 1.000000000000000000 ) ) ;
#412 = CARTESIAN_POINT ( 'NONE',  ( 0.0000000000000000000, 0.0000000000000000000, 0.0000000000000000000 ) ) ;
#413 = AXIS2_PLACEMENT_3D ( 'NONE', #412, #411, #370 ) ;
#414 = CIRCLE ( 'NONE', #413, 57.75000000000000000 ) ;
#415 = CARTESIAN_POINT ( 'NONE',  ( 2.845501612114275700E-014, -194.5957861825378600, 0.0000000000000000000 ) ) ;
ENDSEC;
END-ISO-10303-21;
